A B C D E F G H I J K L M N O P Q R S T U V W X Y Z

WHY NOT ME UKULELE CHORDS by Forrest.

    Gmag7    Bm7    A#m7    Cmag7    Cm7    D#mag7
A|----2-------2------1--------2-------3-------5------------------------------------|
E|----2-------2------1--------0-------3-------3------------------------------------|
C|----2-------2------1--------0-------3-------3------------------------------------|
G|----0-------2------1--------0-------3-------3------------------------------------|


Here's the general strumming/plucking pattern for the chorus/entire song...
D - Strum DOWN
U - Strum UP
P - PLUCK don't strum


    D     U D          P  P  D          P  P
A|--2-----2-2----------2--1--2----------5--3---|
E|--2-----2-2----------2--1--0----------3--3---|
C|--2-----2-2----------2--1--0----------3--3---|
G|--0-----0-0----------2--1--0----------3--3---|

    D     U D          P  P  D          P  P
A|--2-----2-2----------2--1--2----------5--3---|
E|--2-----2-2----------2--1--0----------3--3---|
C|--2-----2-2----------2--1--0----------3--3---|
G|--0-----0-0----------2--1--0----------3--3---|



[Chorus]
Gmag7           Bm7   A#m7  Cmag7
Oh all the best in life are free
              Cm7
So why not me?
              Gmag7
So why not me?
                 Bm7  A#m7  Cmag7
Never did I have to ask the sun
              D#mag7 Cm7
To shine on me
           Gmag7
Shine on me
                Bm7   A#m7  Cmag7
Oh all the best in life are free
              Cm7
So why not me?
           Gmag7
Why not me?
                 Bm7  A#m7  Cmag7
Never did I have to ask the sun
              D#mag7 Cm7
To shine on me, aye

To shine on me


[Verse 1]
Gmag7                Bm7 A#m7
O-kay okay 'kay okay okaay
Cmag7
Ive been stuck inside my head
            Cm7
I'm nothing but a mess
    Gmag7
But now I got the blue skies
     Bm7
Plam trees
A#m7
New highs
Cmag7
Y'all can take the green stuff
        Cm7
I'll be on a view high
Gmag7
New vibe
                  Bm7 A#m7
And it feels just like the old me
Cmag7
Back when I was younger

Undercover
Cm7
Feeling so free
Gmag7
Ghost you
               Bm7 A#m7
But you better never ghost me
Cmag7
I'm an introvert

But man, this weathers' got me hosting


[ha ha]

[Chorus]
Gmag7           Bm7   A#m7  Cmag7
Oh all the best in life are free
              Cm7
So why not me?
              Gmag7
So why not me?
                 Bm7  A#m7  Cmag7
Never did I have to ask the sun
              D#mag7 Cm7
To shine on me
           Gmag7
Shine on me
                Bm7   A#m7  Cmag7
Oh all the best in life are free
              Cm7
So why not me?
           Gmag7
Why not me?
                 Bm7  A#m7  Cmag7
Never did I have to ask the sun
              D#mag7 Cm7
To shine on me, aye

To shine on me

...............



Pilih Sistem Komentar
Tablatures and chords for acoustic guitar and electric guitar, ukulele, drums are parodies/interpretations of the original songs. You may use it for private study, scholarship, research or language learning purposes only.